Go Back   Sonic Youth Gossip > Non-Sonic Sounds
Reload this Page kayo dot...
Register FAQ Members List Mark Forums Read

 
Thread Tools
Old 11.22.2010, 12:46 PM   #121
Derek
invito al cielo
 
Join Date: Jan 2007
Posts: 7,827
Derek kicks all y'all's assesDerek kicks all y'all's assesDerek kicks all y'all's assesDerek kicks all y'all's assesDerek kicks all y'all's assesDerek kicks all y'all's assesDerek kicks all y'all's assesDerek kicks all y'all's assesDerek kicks all y'all's assesDerek kicks all y'all's assesDerek kicks all y'all's asses
I didn't know the Kitty Song was still online! Thanks.

Adam, have you heard the Friendly Bears? They're good friends with Kayo Dot and have done a split with Infidel?/Castro!
http://www.myspace.com/friendlybears
__________________


 
Derek is offline   |QUOTE AND REPLY|
Old 11.24.2010, 06:18 AM   #122
Derek
invito al cielo
 
Join Date: Jan 2007
Posts: 7,827
Derek kicks all y'all's assesDerek kicks all y'all's assesDerek kicks all y'all's assesDerek kicks all y'all's assesDerek kicks all y'all's assesDerek kicks all y'all's assesDerek kicks all y'all's assesDerek kicks all y'all's assesDerek kicks all y'all's assesDerek kicks all y'all's assesDerek kicks all y'all's asses
Listened to Stained Glass last night.

I have no idea what to say, it sort of came out of nowhere.
__________________


 
Derek is offline   |QUOTE AND REPLY|
Old 11.25.2010, 02:53 PM   #124
atsonicpark
invito al cielo
 
atsonicpark's Avatar
 
Join Date: Apr 2006
Posts: 28,992
atsonicpark kicks all y'all's assesatsonicpark kicks all y'all's assesatsonicpark kicks all y'all's assesatsonicpark kicks all y'all's assesatsonicpark kicks all y'all's assesatsonicpark kicks all y'all's assesatsonicpark kicks all y'all's assesatsonicpark kicks all y'all's assesatsonicpark kicks all y'all's assesatsonicpark kicks all y'all's assesatsonicpark kicks all y'all's asses
Yeah, the last two albums weren't too hot. This ep rules though.
__________________




 
atsonicpark is offline   |QUOTE AND REPLY|
Old 11.25.2010, 05:20 PM   #126
Derek
invito al cielo
 
Join Date: Jan 2007
Posts: 7,827
Derek kicks all y'all's assesDerek kicks all y'all's assesDerek kicks all y'all's assesDerek kicks all y'all's assesDerek kicks all y'all's assesDerek kicks all y'all's assesDerek kicks all y'all's assesDerek kicks all y'all's assesDerek kicks all y'all's assesDerek kicks all y'all's assesDerek kicks all y'all's asses
I like Coyote a lot more than Blue Lambency Downward.

Dowsing is my favourite though.
__________________


 
Derek is offline   |QUOTE AND REPLY|
Old 11.26.2010, 01:43 AM   #127
atsonicpark
invito al cielo
 
atsonicpark's Avatar
 
Join Date: Apr 2006
Posts: 28,992
atsonicpark kicks all y'all's assesatsonicpark kicks all y'all's assesatsonicpark kicks all y'all's assesatsonicpark kicks all y'all's assesatsonicpark kicks all y'all's assesatsonicpark kicks all y'all's assesatsonicpark kicks all y'all's assesatsonicpark kicks all y'all's assesatsonicpark kicks all y'all's assesatsonicpark kicks all y'all's assesatsonicpark kicks all y'all's asses
Yep, Coyote's way better than Blue, imo. And Dowsing's my favorite too.

Either way, one of my all time favorite bands, glad to see this little thread turn into something much bigger...
__________________




 
atsonicpark is offline   |QUOTE AND REPLY|
Old 11.26.2010, 02:15 AM   #128
Everyneurotic
invito al cielo
 
Everyneurotic's Avatar
 
Join Date: Mar 2006
Location: Mexico
Posts: 15,777
Everyneurotic kicks all y'all's assesEveryneurotic kicks all y'all's assesEveryneurotic kicks all y'all's assesEveryneurotic kicks all y'all's assesEveryneurotic kicks all y'all's assesEveryneurotic kicks all y'all's assesEveryneurotic kicks all y'all's assesEveryneurotic kicks all y'all's assesEveryneurotic kicks all y'all's assesEveryneurotic kicks all y'all's assesEveryneurotic kicks all y'all's asses
I have a friend who is just like you. Dowsing is his fav, BLD the weakest in his opinion.

Myself, the one i don't like that much (after Coyote) is Dowsing.

1. BLD
2. Choir of the Eye
3. split with Bloody Panda
4. Dowsing
5. Coyote
Everyneurotic is offline   |QUOTE AND REPLY|
Old 11.26.2010, 02:27 AM   #129
atsonicpark
invito al cielo
 
atsonicpark's Avatar
 
Join Date: Apr 2006
Posts: 28,992
atsonicpark kicks all y'all's assesatsonicpark kicks all y'all's assesatsonicpark kicks all y'all's assesatsonicpark kicks all y'all's assesatsonicpark kicks all y'all's assesatsonicpark kicks all y'all's assesatsonicpark kicks all y'all's assesatsonicpark kicks all y'all's assesatsonicpark kicks all y'all's assesatsonicpark kicks all y'all's assesatsonicpark kicks all y'all's asses
to be honest, I think this new ep is probably my second favorite release. If this is the direction they're going on, I am excited.
__________________




 
atsonicpark is offline   |QUOTE AND REPLY|
Old 12.03.2010, 05:35 PM   #131
tcpotbntmy
little trouble girl
 
tcpotbntmy's Avatar
 
Join Date: Aug 2009
Posts: 66
tcpotbntmy kicks all y'all's assestcpotbntmy kicks all y'all's assestcpotbntmy kicks all y'all's assestcpotbntmy kicks all y'all's assestcpotbntmy kicks all y'all's assestcpotbntmy kicks all y'all's assestcpotbntmy kicks all y'all's assestcpotbntmy kicks all y'all's assestcpotbntmy kicks all y'all's assestcpotbntmy kicks all y'all's assestcpotbntmy kicks all y'all's asses
I've thoroughly enjoyed everything Kayo Dot has done, there's been no real weak point as far as I'm concerned (...though I've never listened to the Bloody Panda split)

to have a stretch of releasing Choirs of the Eye... Dowsing... BLD...Coyote, the latter two I personally hold in the same esteem as the initial two, and now this gorgeous EP, adds up to a pretty fantastic run of great musical output.
tcpotbntmy is offline   |QUOTE AND REPLY|
Old 12.03.2010, 05:41 PM   #132
tcpotbntmy
little trouble girl
 
tcpotbntmy's Avatar
 
Join Date: Aug 2009
Posts: 66
tcpotbntmy kicks all y'all's assestcpotbntmy kicks all y'all's assestcpotbntmy kicks all y'all's assestcpotbntmy kicks all y'all's assestcpotbntmy kicks all y'all's assestcpotbntmy kicks all y'all's assestcpotbntmy kicks all y'all's assestcpotbntmy kicks all y'all's assestcpotbntmy kicks all y'all's assestcpotbntmy kicks all y'all's assestcpotbntmy kicks all y'all's asses
the Foxy Digitalis interview was awesome...

would love to see them on tour but that's not going to happen.
tcpotbntmy is offline   |QUOTE AND REPLY|
Old 12.03.2010, 05:53 PM   #133
washer
bad moon rising
 
washer's Avatar
 
Join Date: Jun 2009
Location: Porto
Posts: 211
washer cold hard suckawasher cold hard suckawasher cold hard suckawasher cold hard suckawasher cold hard suckawasher cold hard suckawasher cold hard suckawasher cold hard suckawasher cold hard suckawasher cold hard suckawasher cold hard sucka
I heard Stained Glass for the first time today, can't say much 'cause there's a lot going on on it, but it's definitely a beautiful piece.
washer is offline   |QUOTE AND REPLY|
Old 12.03.2010, 05:59 PM   #134
Derek
invito al cielo
 
Join Date: Jan 2007
Posts: 7,827
Derek kicks all y'all's assesDerek kicks all y'all's assesDerek kicks all y'all's assesDerek kicks all y'all's assesDerek kicks all y'all's assesDerek kicks all y'all's assesDerek kicks all y'all's assesDerek kicks all y'all's assesDerek kicks all y'all's assesDerek kicks all y'all's assesDerek kicks all y'all's asses
1. Dowsing Anemone with Copper Tongue
2. Choirs of the Eye
3. Bloody Panda split
4. Coyote
5. Stained Glass EP
6. Blue Lambency Downward

Quote:
would love to see them on tour but that's not going to happen.
How come? They tour all the time.
__________________


 
Derek is offline   |QUOTE AND REPLY|
Old 12.03.2010, 06:09 PM   #135
tcpotbntmy
little trouble girl
 
tcpotbntmy's Avatar
 
Join Date: Aug 2009
Posts: 66
tcpotbntmy kicks all y'all's assestcpotbntmy kicks all y'all's assestcpotbntmy kicks all y'all's assestcpotbntmy kicks all y'all's assestcpotbntmy kicks all y'all's assestcpotbntmy kicks all y'all's assestcpotbntmy kicks all y'all's assestcpotbntmy kicks all y'all's assestcpotbntmy kicks all y'all's assestcpotbntmy kicks all y'all's assestcpotbntmy kicks all y'all's asses
This tour; of course I'll get around to it in the future.
tcpotbntmy is offline   |QUOTE AND REPLY|
Old 12.03.2010, 06:35 PM   #136
Derek
invito al cielo
 
Join Date: Jan 2007
Posts: 7,827
Derek kicks all y'all's assesDerek kicks all y'all's assesDerek kicks all y'all's assesDerek kicks all y'all's assesDerek kicks all y'all's assesDerek kicks all y'all's assesDerek kicks all y'all's assesDerek kicks all y'all's assesDerek kicks all y'all's assesDerek kicks all y'all's assesDerek kicks all y'all's asses
Last time they played where I live it was in an age restricted venue so I couldn't go. I wasn't too bothered about it though considering most of the band was held up by borders and the show essentially became a Tartar Lamb gig.
__________________


 
Derek is offline   |QUOTE AND REPLY|
Old 12.20.2010, 09:28 AM   #137
Derek
invito al cielo
 
Join Date: Jan 2007
Posts: 7,827
Derek kicks all y'all's assesDerek kicks all y'all's assesDerek kicks all y'all's assesDerek kicks all y'all's assesDerek kicks all y'all's assesDerek kicks all y'all's assesDerek kicks all y'all's assesDerek kicks all y'all's assesDerek kicks all y'all's assesDerek kicks all y'all's assesDerek kicks all y'all's asses
My copy of Stained Glass came today. I love the lyrics, and I can't really say that for many of their songs.
__________________


 
Derek is offline   |QUOTE AND REPLY|
Old 02.11.2011, 09:28 PM   #138
Derek
invito al cielo
 
Join Date: Jan 2007
Posts: 7,827
Derek kicks all y'all's assesDerek kicks all y'all's assesDerek kicks all y'all's assesDerek kicks all y'all's assesDerek kicks all y'all's assesDerek kicks all y'all's assesDerek kicks all y'all's assesDerek kicks all y'all's assesDerek kicks all y'all's assesDerek kicks all y'all's assesDerek kicks all y'all's asses
Tab for maudlin's Sleep is a Curse:
Notation: h = hammer-on
p = pull-off
>> = slide
squiggly shit = strummed
Intro:

Guitar 1:

E|----------------------------------------------------|
B|0-------3---------------1---------------------------|
G|0---------------2-----------------------0-----------|
D|----------------4---------------2----------------0--|
A|--------------------------------3---------------2---|
E|------------------------------------------------3---|

Guitar 2:

E|--------------------------------------------0---0h3-|
B|----0---3>>>5----3---0-------0---3------------------|
G|0-----------------------2-----------0---------------|
D|----------------------------------------2-----------|
A|----------------------------------------------------|
E|----------------------------------------------------|



Verse 1:

Guitar 1:

E|3-2-0---0-----------------------5---7-------7---7)--------------| Note: first note of guitar 1 (3rd fret
B|------3---3-0---0---------------5---------------0(--------------| on E string; G) is hammered on from
G|--------------2-------------------------4-------4)--------------| 2nd fret (F#), but there wasn't enough
D|----------------------------------------------------------------| space given my unnecessarily strict
A|----------------------------------------------------------------| rhythmic style of tablature to notate
E|----------------------------------------------------------------| this


E|3>>>5---5-------0-------------------0---------------------------|
B|3>>>5---5---------3-0---0-------3-----------0---3---------------|
G|----------------------2-----------------2-----------------------|
D|----------------------------------------------------------------|
A|----------------------------------------------------------------|
E|----------------------------------------------------------------| Repeat 4x

Guitar 2:

E|----------------------------------------------------------------|
B|--------------------------------0---------------1h3-----0-------|
G|----------------0-----------------------2-------2---------------|
D|2-------2-------2---------------2-------3---------------2-------|\
A|--------2-------3-----------------------------------------------| \
E|----------------------------------------------------------------| \
\ A1
1 2 3 4 1 2 3 4 1 2 3 4 1 2 3 4 /
E|----------------------------------------------------------------| /
B|0---------------------------------------------------------------| /
G|0-------2---------------------------------------0---------------|/
D|2-------3-------0-------0-------0---2-----------2-------2h4p2---|
A|------------------------0---------------0---2-------------------|
E|----------------3-----------------------------------------------|

E|----------------------------------------------------------------|
B|--------------------------------0---------------1h3-----0-------|
G|----------------0-------0h2-0-----------2-------2---------------|
D|2-------2-------2---------------2-------3---------------2-------|\
A|--------2-------3-----------------------------------------------| \
E|----------------------------------------------------------------| \
\ A2

E|----------------------------------------------------------------| /
B|0---------------------------------------------------------------| /
G|0-------2---------------------------------------0---------------|/
D|2-------3-------0-------0-------0---2-----------2-------2h4p2---|
A|------------------------0---------------0---2-------------------|
E|----------------3-----------------------------------------------| Play A1, A2, A1, A2.



Bridge:

Guitar 1:

E|----------------------------------------------------------------|
B|0-------3---------------1---------------------------------------|
G|0---------------2-----------------------0-----------------------|
D|----------------4---------------2----------------0--------------|
A|--------------------------------3---------------2---------------|
E|------------------------------------------------3---------------| x4

Guitar 2:
1 2 3 4 1 2 3 4 1 2 3 4 1 2 3 4
E|----------------------------------------------------------------|
B|----------------------------------------------------------------|
G|--------------------------------2-------0h2-0-------------------|
D|2-------0-------4-------4---------------------------0---2---4---|
A|--------0-------2-----------3---3-------3-------2---------------|
E|3-----------------------------------------------3---------------|


E|----------------------------------------------------------------|
B|----------------------------------------------------------------|
G|--------------------------------2-------0h2-0-------------------|
D|2-------0-------4-------4---------------------------0---2---4---|
A|--------0-------2-------2---3---3-------3-------2---------------|
E|3-----------------------------------------------3---------------|


E|----------------------------------------------------------------|
B|----------------------------------------3---1---0---------------|
G|--------------------------------2-------------------2---0---4---|
D|2-------0-------4-------4---------------------------------------|
A|--------0-------2-------2---3---3-------3-----------------------|
E|3-----------------------------------------------3---------------|


E|------------------------------------------------0---------------|
B|----------------------------------------0h3-0-----------0-h-1---|
G|--------------------------------2-------------------2-----------|
D|2-------0-------4-------4---------------------------------------|
A|--------0-------2-------2---3---3-------3-----------------------|
E|3-----------------------------------------------3---------------|



Verse 2:

Guitar 1:


1 2 3 4 1 2 3 4 1 2 3 4 1 2 3 4
E|----------------------------------------------------------------|
B|010-------------------------------------------------------------|
G|----0---0-------------------------------------------------------|
D|------4---------2-----------------------4-------4-------4-------|
A|------------------------3-------2-----------2-------2-----------|
E|--------------------0-------------------------------------------| x2


E|----------------------------------------------------------------|
B|----010---------------------------------------------------------|
G|--------0---0---------------------------------------------------|
D|----------4-----2-----------------------4-------4-------4-------|
A|------------------------3-------2-----------2-------2-----------|
E|--------------------0-------------------------------------------|

E|----------------------------------------------------------------|
B|0---------------------------------------------------------------|
G|0---------------------------------------------------------------|
D|2---------------------------------------------------------------|
A|3---------------------------------------------------------------|
E|----------------------------------------------------------------|



Guitar 2:

E|----------------------------------------------------------------|
B|----------------1-----------------------------------------------|
G|2-------2-------------------------------------------------------|
D|------------------------4-------2-------0-------4-------4-------|
A|3-------3-------0-------0---0---2-------2-----------0---2>>>3---|
E|------------------------------------------------2---------------| x3


E|----------------------------------------------------------------|
B|0---------------------------------------------------------------|
G|0---------------------------------------------------------------|
D|2---------------------------------------------------------------|
A|3---------------------------------------------------------------|
E|----------------------------------------------------------------|
__________________


 
Derek is offline   |QUOTE AND REPLY|
Old 02.18.2011, 09:40 AM   #139
tcpotbntmy
little trouble girl
 
tcpotbntmy's Avatar
 
Join Date: Aug 2009
Posts: 66
tcpotbntmy kicks all y'all's assestcpotbntmy kicks all y'all's assestcpotbntmy kicks all y'all's assestcpotbntmy kicks all y'all's assestcpotbntmy kicks all y'all's assestcpotbntmy kicks all y'all's assestcpotbntmy kicks all y'all's assestcpotbntmy kicks all y'all's assestcpotbntmy kicks all y'all's assestcpotbntmy kicks all y'all's assestcpotbntmy kicks all y'all's asses
Quote:
Originally Posted by Derek
Adam, have you heard the Friendly Bears? They're good friends with Kayo Dot and have done a split with Infidel?/Castro!
http://www.myspace.com/friendlybears



Tim Byrnes of Friendly Bears played on Coyote as well as he's contributed trumpet on each of Giggle the Ozone's Expo Nexus and Charge for select songs.

Polyimage of Known Exits is great: http://www.kayodot.net/tartarlamb/
tcpotbntmy is offline   |QUOTE AND REPLY|
Old 02.18.2011, 11:19 AM   #140
Derek
invito al cielo
 
Join Date: Jan 2007
Posts: 7,827
Derek kicks all y'all's assesDerek kicks all y'all's assesDerek kicks all y'all's assesDerek kicks all y'all's assesDerek kicks all y'all's assesDerek kicks all y'all's assesDerek kicks all y'all's assesDerek kicks all y'all's assesDerek kicks all y'all's assesDerek kicks all y'all's assesDerek kicks all y'all's asses
Yeah Polyimage of Known Exits is awesome. Gonna buy a copy eventually.
__________________


 
Derek is offline   |QUOTE AND REPLY|


Thread Tools

All content 2006 Sonic Youth